  0
SECTION
  2
HEADER
  9
$LIMMIN
 10
0.000000
 20
0.000000
  9
$LIMMAX
 10
210.358570
 20
275.041710
  9
$EXTMIN
 10
0.000000
 20
0.000000
  9
$EXTMAX
 10
210.358570
 20
275.041710
  9
$ANGBASE
 50
0.000000
  9
$ANGDIR
 70
0
  9
$INSUNITS
 70
0
  9
$DIMALT
 70
0
  9
$DIMLUNIT
 70
2
  9
$DIMASZ
 40
3.000000
  9
$DIMTXT
 40
5.000000
  9
$DIMRND
 40
0.010000
  9
$DIMEXE
 40
2.000000
  9
$DIMEXO
 40
2.000000
  9
$DIMAUNIT
 70
0
  9
$DIMADEC
 70
2
  9
$GRIDUNIT
 10
0.000977
 20
0.000977
  9
$PLIMMIN
 10
0.000000
 20
0.000000
  9
$PLIMMAX
 10
215.900000
 20
279.400000
  9
$PSVPSCALE
 40
1.000000
  0
ENDSEC
  0
SECTION
  2
TABLES
  0
TABLE
  2
LTYPE
 70
     1
  0
LTYPE
  2
CONTINUOUS
 70
    64
  3
Ausgez
 72
    65
 73
  0
 40
0.000000
  0
ENDTAB
  0
TABLE
  2
LAYER
 70
     1
  0
LAYER
  2
default
 70
    64
 39
0
 62
0
  6
CONTINUOUS
  0
LAYER
  2
markup
 70
    64
 39
0
 62
0
  6
CONTINUOUS
  0
ENDTAB
  0
ENDSEC
  0
SECTION
  2
BLOCKS
  0
ENDSEC
  0
SECTION
  2
ENTITIES
  0
TEXT
  8
markup
  6
CONTINUOUS
 10
32.285377
 20
268.041710
 40
7.000000
 50
0.000000
 72
1
  7
Normal#0.700000#4.200000
  1
Stucco Sprayer
 39
2
 62
0
  0
TEXT
  8
markup
  6
CONTINUOUS
 10
32.285377
 20
258.241707
 40
7.000000
 50
0.000000
 72
1
  7
Normal#0.700000#4.200000
  1
Diagram 2
 39
2
 62
0
  0
TEXT
  8
markup
  6
CONTINUOUS
 10
128.803014
 20
261.787295
 40
10.000000
 50
0.000000
 72
0
  7
Normal#2.000000#6.000000
  1
NOT TO SCALE
 39
0
 62
0
  0
LINE
  8
default
  6
CONTINUOUS
 10
97.289605
 20
211.981630
 11
103.289605
 21
211.981630
 39
0
 62
0
  0
LINE
  8
default
  6
CONTINUOUS
 10
97.289605
 20
163.981630
 11
103.289605
 21
163.981630
 39
0
 62
0
  0
LINE
  8
default
  6
CONTINUOUS
 10
87.289605
 20
205.981634
 11
97.289605
 21
205.981634
 39
0
 62
0
  0
LINE
  8
default
  6
CONTINUOUS
 10
87.289605
 20
169.981622
 11
97.289605
 21
169.981630
 39
0
 62
0
  0
LINE
  8
default
  6
CONTINUOUS
 10
87.289605
 20
205.981634
 11
87.289605
 21
203.981630
 39
0
 62
0
  0
LINE
  8
default
  6
CONTINUOUS
 10
87.289605
 20
169.981622
 11
87.289605
 21
171.981630
 39
0
 62
0
  0
LINE
  8
default
  6
CONTINUOUS
 10
72.289612
 20
169.981622
 11
82.289612
 21
169.981630
 39
0
 62
0
  0
LINE
  8
default
  6
CONTINUOUS
 10
72.289612
 20
205.981634
 11
72.289612
 21
203.981630
 39
0
 62
0
  0
LINE
  8
default
  6
CONTINUOUS
 10
72.289612
 20
169.981622
 11
72.289612
 21
171.981630
 39
0
 62
0
  0
LINE
  8
default
  6
CONTINUOUS
 10
72.289612
 20
205.981634
 11
82.289612
 21
205.981634
 39
0
 62
0
  0
LINE
  8
default
  6
CONTINUOUS
 10
82.289612
 20
169.981630
 11
82.289612
 21
167.981630
 39
0
 62
0
  0
LINE
  8
default
  6
CONTINUOUS
 10
82.289612
 20
205.981634
 11
82.289612
 21
207.981630
 39
0
 62
0
  0
LINE
  8
default
  6
CONTINUOUS
 10
97.289605
 20
211.981630
 11
97.289605
 21
205.981634
 39
0
 62
0
  0
LINE
  8
default
  6
CONTINUOUS
 10
97.289605
 20
169.981630
 11
97.289605
 21
163.981630
 39
0
 62
0
  0
LINE
  8
default
  6
CONTINUOUS
 10
129.289582
 20
203.981630
 11
137.289612
 21
203.981630
 39
0
 62
0
  0
LINE
  8
default
  6
CONTINUOUS
 10
129.289582
 20
171.981630
 11
137.289612
 21
171.981630
 39
0
 62
0
  0
LINE
  8
default
  6
CONTINUOUS
 10
117.289597
 20
199.981630
 11
129.289582
 21
199.981630
 39
0
 62
0
  0
LINE
  8
default
  6
CONTINUOUS
 10
129.289582
 20
175.981630
 11
117.289597
 21
175.981630
 39
0
 62
0
  0
LINE
  8
default
  6
CONTINUOUS
 10
97.289605
 20
203.981630
 11
97.289605
 21
196.981637
 39
0
 62
0
  0
LINE
  8
default
  6
CONTINUOUS
 10
97.289605
 20
196.981630
 11
97.289605
 21
203.981634
 39
0
 62
0
  0
LINE
  8
default
  6
CONTINUOUS
 10
97.289605
 20
196.981637
 11
94.789605
 21
198.981634
 39
0
 62
0
  0
LINE
  8
default
  6
CONTINUOUS
 10
94.789605
 20
203.981630
 11
94.789605
 21
198.981634
 39
0
 62
0
  0
HATCH
  8
default
  6
CONTINUOUS
  1
 
  2
135
 70
0
 91
1
 72
1
 10
94.789605
 20
203.981630
 11
97.289605
 21
203.981630
 72
1
 10
97.289605
 20
203.981630
 11
97.289605
 21
196.981637
 72
1
 10
97.289605
 20
196.981630
 11
97.289605
 21
203.981634
 72
1
 10
97.289605
 20
196.981637
 11
94.789605
 21
198.981634
 72
1
 10
94.789605
 20
203.981630
 11
94.789605
 21
198.981634
 75
0
 76
1
 52
0.000000
 91
1
 41
1.000000
 77
0
 39
0
 62
0
  0
LINE
  8
default
  6
CONTINUOUS
 10
97.289605
 20
171.981630
 11
97.289605
 21
178.981622
 39
0
 62
0
  0
LINE
  8
default
  6
CONTINUOUS
 10
97.289605
 20
178.981622
 11
94.789605
 21
176.981630
 39
0
 62
0
  0
LINE
  8
default
  6
CONTINUOUS
 10
94.789605
 20
171.981630
 11
94.789605
 21
176.981630
 39
0
 62
0
  0
HATCH
  8
default
  6
CONTINUOUS
  1
 
  2
135
 70
0
 91
1
 72
1
 10
94.789605
 20
171.981630
 11
97.289605
 21
171.981630
 72
1
 10
97.289605
 20
171.981630
 11
97.289605
 21
178.981622
 72
1
 10
97.289605
 20
178.981630
 11
97.289605
 21
171.981630
 72
1
 10
97.289605
 20
178.981622
 11
94.789605
 21
176.981630
 72
1
 10
94.789605
 20
171.981630
 11
94.789605
 21
176.981630
 75
0
 76
1
 52
0.000000
 91
1
 41
1.000000
 77
0
 39
0
 62
0
  0
LINE
  8
default
  6
CONTINUOUS
 10
97.289605
 20
182.981637
 11
97.289605
 21
178.981622
 39
0
 62
0
  0
LINE
  8
default
  6
CONTINUOUS
 10
98.815026
 20
182.981637
 11
98.815026
 21
175.981630
 39
0
 62
0
  0
LINE
  8
default
  6
CONTINUOUS
 10
97.289605
 20
196.981637
 11
97.289605
 21
195.981637
 39
0
 62
0
  0
LINE
  8
default
  6
CONTINUOUS
 10
98.815026
 20
199.981630
 11
98.815026
 21
195.981637
 39
0
 62
0
  0
HATCH
  8
default
  6
CONTINUOUS
  1
 
  2
45
 70
0
 91
1
 72
1
 10
97.289605
 20
199.981630
 11
103.289605
 21
199.981630
 72
1
 10
97.289605
 20
196.981630
 11
97.289605
 21
203.981634
 72
1
 10
97.289605
 20
195.981637
 11
98.815026
 21
195.981637
 72
1
 10
97.289605
 20
196.981637
 11
97.289605
 21
195.981637
 72
1
 10
98.815026
 20
199.981630
 11
98.815026
 21
195.981637
 75
0
 76
1
 52
0.000000
 91
1
 41
1.000000
 77
0
 39
0
 62
0
  0
LINE
  8
default
  6
CONTINUOUS
 10
97.289605
 20
178.981630
 11
97.289605
 21
175.981630
 39
0
 62
0
  0
LINE
  8
default
  6
CONTINUOUS
 10
97.289605
 20
175.981630
 11
97.289605
 21
171.981630
 39
0
 62
0
  0
HATCH
  8
default
  6
CONTINUOUS
  1
 
  2
45
 70
0
 91
1
 72
1
 10
97.289605
 20
175.981630
 11
103.289605
 21
175.981630
 72
1
 10
97.289605
 20
182.981637
 11
98.815026
 21
182.981637
 72
1
 10
97.289605
 20
182.981637
 11
97.289605
 21
178.981622
 72
1
 10
98.815026
 20
182.981637
 11
98.815026
 21
175.981630
 72
1
 10
97.289605
 20
178.981630
 11
97.289605
 21
175.981630
 75
0
 76
1
 52
0.000000
 91
1
 41
1.000000
 77
0
 39
0
 62
0
  0
LINE
  8
default
  6
CONTINUOUS
 10
97.289605
 20
182.981637
 11
98.815026
 21
182.981637
 39
0
 62
0
  0
LINE
  8
default
  6
CONTINUOUS
 10
97.289605
 20
195.981637
 11
98.815026
 21
195.981637
 39
0
 62
0
  0
LINE
  8
default
  6
CONTINUOUS
 10
137.289612
 20
203.981630
 11
137.289597
 21
199.981634
 39
0
 62
0
  0
LINE
  8
default
  6
CONTINUOUS
 10
137.289612
 20
175.981630
 11
137.289612
 21
171.981630
 39
0
 62
0
  0
LINE
  8
default
  6
CONTINUOUS
 10
129.289582
 20
175.981630
 11
129.289582
 21
171.981630
 39
0
 62
0
  0
LINE
  8
default
  6
CONTINUOUS
 10
129.289582
 20
203.981630
 11
129.289582
 21
199.981630
 39
0
 62
0
  0
LINE
  8
default
  6
CONTINUOUS
 10
117.289597
 20
199.981630
 11
117.289597
 21
196.981637
 39
0
 62
0
  0
LINE
  8
default
  6
CONTINUOUS
 10
117.289597
 20
178.981622
 11
117.289597
 21
175.981630
 39
0
 62
0
  0
LINE
  8
default
  6
CONTINUOUS
 10
117.289605
 20
196.981637
 11
137.289597
 21
199.981634
 39
0
 62
0
  0
LINE
  8
default
  6
CONTINUOUS
 10
117.289605
 20
178.981622
 11
137.289597
 21
175.981630
 39
0
 62
0
  0
LINE
  8
default
  6
CONTINUOUS
 10
97.289605
 20
199.981630
 11
112.289605
 21
199.981630
 39
0
 62
0
  0
LINE
  8
default
  6
CONTINUOUS
 10
97.289605
 20
175.981630
 11
112.289605
 21
175.981630
 39
0
 62
0
  0
LINE
  8
default
  6
CONTINUOUS
 10
103.289605
 20
171.981630
 11
103.289605
 21
163.981630
 39
0
 62
0
  0
LINE
  8
default
  6
CONTINUOUS
 10
112.289605
 20
175.981630
 11
112.289605
 21
171.981630
 39
0
 62
0
  0
LINE
  8
default
  6
CONTINUOUS
 10
112.289605
 20
203.981630
 11
112.289605
 21
199.981630
 39
0
 62
0
  0
LINE
  8
default
  6
CONTINUOUS
 10
103.289605
 20
211.981630
 11
103.289605
 21
203.981630
 39
0
 62
0
  0
LINE
  8
default
  6
CONTINUOUS
 10
47.289608
 20
207.981630
 11
82.289612
 21
207.981630
 39
0
 62
0
  0
LINE
  8
default
  6
CONTINUOUS
 10
47.289608
 20
167.981630
 11
82.289612
 21
167.981630
 39
0
 62
0
  0
LINE
  8
default
  6
CONTINUOUS
 10
47.289608
 20
203.981630
 11
72.289612
 21
203.981630
 39
0
 62
0
  0
LINE
  8
default
  6
CONTINUOUS
 10
47.289608
 20
171.981630
 11
72.289612
 21
171.981630
 39
0
 62
0
  0
LINE
  8
default
  6
CONTINUOUS
 10
87.289605
 20
203.981630
 11
94.789605
 21
203.981630
 39
0
 62
0
  0
LINE
  8
default
  6
CONTINUOUS
 10
94.789605
 20
203.981630
 11
97.289605
 21
203.981630
 39
0
 62
0
  0
LINE
  8
default
  6
CONTINUOUS
 10
87.289605
 20
171.981630
 11
94.789605
 21
171.981630
 39
0
 62
0
  0
LINE
  8
default
  6
CONTINUOUS
 10
94.789605
 20
203.981634
 11
97.289605
 21
203.981634
 39
0
 62
0
  0
LINE
  8
default
  6
CONTINUOUS
 10
94.789605
 20
171.981630
 11
97.289605
 21
171.981630
 39
0
 62
0
  0
LINE
  8
default
  6
CONTINUOUS
 10
94.789605
 20
171.981630
 11
97.289605
 21
171.981630
 39
0
 62
0
  0
LINE
  8
default
  6
CONTINUOUS
 10
103.289605
 20
171.981630
 11
112.289605
 21
171.981630
 39
0
 62
0
  0
LINE
  8
default
  6
CONTINUOUS
 10
103.289605
 20
203.981630
 11
112.289605
 21
203.981630
 39
0
 62
0
  0
TEXT
  8
markup
  6
CONTINUOUS
 10
24.835556
 20
227.141852
 40
5.000000
 50
0.000000
 72
0
  7
Normal#0.500000#3.000000
  1
1 1/2" DWV tee
 39
0
 62
0
  0
TEXT
  8
markup
  6
CONTINUOUS
 10
76.058889
 20
231.281111
 40
5.000000
 50
0.000000
 72
0
  7
Normal#0.500000#3.000000
  1
1 1/2" DWV male x 3/4" female NPT
 39
0
 62
0
  0
TEXT
  8
markup
  6
CONTINUOUS
 10
76.058889
 20
224.281111
 40
5.000000
 50
0.000000
 72
0
  7
Normal#0.500000#3.000000
  1
            (dishwasher fitting)
 39
0
 62
0
  0
TEXT
  8
markup
  6
CONTINUOUS
 10
151.082963
 20
211.619630
 40
5.000000
 50
0.000000
 72
0
  7
Normal#0.500000#3.000000
  1
3/4" male NPT x
 39
0
 62
0
  0
TEXT
  8
markup
  6
CONTINUOUS
 10
151.082963
 20
204.619630
 40
5.000000
 50
0.000000
 72
0
  7
Normal#0.500000#3.000000
  1
1/2" female NPT
 39
0
 62
0
  0
TEXT
  8
markup
  6
CONTINUOUS
 10
151.082963
 20
197.619630
 40
5.000000
 50
0.000000
 72
0
  7
Normal#0.500000#3.000000
  1
  (galvanized)
 39
0
 62
0
  0
TEXT
  8
markup
  6
CONTINUOUS
 10
109.639454
 20
154.111169
 40
3.000000
 50
0.000000
 72
0
  7
Normal#0.300000#1.800000
  1
Fender washer with 5/8" orfice,
 39
0
 62
0
  0
TEXT
  8
markup
  6
CONTINUOUS
 10
109.639454
 20
149.911169
 40
3.000000
 50
0.000000
 72
0
  7
Normal#0.300000#1.800000
  1
3/32" offset from center
 39
0
 62
0
  0
TEXT
  8
markup
  6
CONTINUOUS
 10
109.639454
 20
145.711169
 40
3.000000
 50
0.000000
 72
0
  7
Normal#0.300000#1.800000
  1
(above center)
 39
0
 62
0
  0
TEXT
  8
markup
  6
CONTINUOUS
 10
58.352310
 20
150.319513
 40
3.000000
 50
0.000000
 72
0
  7
Normal#0.300000#1.800000
  1
ABS washer to hold fender
 39
0
 62
0
  0
TEXT
  8
markup
  6
CONTINUOUS
 10
58.352310
 20
146.119513
 40
3.000000
 50
0.000000
 72
0
  7
Normal#0.300000#1.800000
  1
washer in place (I cut up
 39
0
 62
0
  0
TEXT
  8
markup
  6
CONTINUOUS
 10
58.352310
 20
141.919513
 40
3.000000
 50
0.000000
 72
0
  7
Normal#0.300000#1.800000
  1
a dishwasher fitting for this)
 39
0
 62
0
  0
LINE
  8
markup
  6
CONTINUOUS
 10
48.394639
 20
225.674113
 11
55.186776
 21
209.898826
 39
0
 62
0
  0
LINE
  8
markup
  6
CONTINUOUS
 10
116.535114
 20
221.292089
 11
107.332863
 21
206.393207
 39
0
 62
0
  0
LINE
  8
markup
  6
CONTINUOUS
 10
118.068822
 20
158.410043
 11
100.540726
 21
181.853872
 39
0
 62
0
  0
LINE
  8
markup
  6
CONTINUOUS
 10
93.748588
 20
173.966229
 11
81.040718
 21
156.438132
 39
0
 62
0
  0
LINE
  8
default
  6
CONTINUOUS
 10
115.237608
 20
74.463326
 11
107.237608
 21
74.463326
 39
0
 62
0
  0
LINE
  8
default
  6
CONTINUOUS
 10
107.237608
 20
74.463326
 11
95.237608
 21
68.463326
 39
0
 62
0
  0
LINE
  8
default
  6
CONTINUOUS
 10
95.237608
 20
68.463326
 11
91.237604
 21
68.463326
 39
0
 62
0
  0
LINE
  8
default
  6
CONTINUOUS
 10
91.237604
 20
56.463326
 11
95.237608
 21
56.463326
 39
0
 62
0
  0
LINE
  8
default
  6
CONTINUOUS
 10
95.237608
 20
56.463326
 11
107.237608
 21
50.463326
 39
0
 62
0
  0
LINE
  8
default
  6
CONTINUOUS
 10
107.237608
 20
50.463326
 11
115.237608
 21
50.463326
 39
0
 62
0
  0
LINE
  8
default
  6
CONTINUOUS
 10
91.237604
 20
68.463326
 11
91.237604
 21
56.463326
 39
0
 62
0
  0
LINE
  8
default
  6
CONTINUOUS
 10
115.237608
 20
74.463326
 11
115.237608
 21
50.463326
 39
0
 62
0
  0
LINE
  8
default
  6
CONTINUOUS
 10
115.237593
 20
72.463299
 11
127.237593
 21
72.463299
 39
0
 62
0
  0
LINE
  8
default
  6
CONTINUOUS
 10
127.237593
 20
72.463299
 11
127.237593
 21
52.463295
 39
0
 62
0
  0
LINE
  8
default
  6
CONTINUOUS
 10
127.237593
 20
52.463295
 11
115.237593
 21
52.463295
 39
0
 62
0
  0
LINE
  8
default
  6
CONTINUOUS
 10
127.237593
 20
52.463295
 11
125.237593
 21
72.463299
 39
0
 62
0
  0
LINE
  8
default
  6
CONTINUOUS
 10
125.237593
 20
52.463295
 11
123.237593
 21
72.463299
 39
0
 62
0
  0
LINE
  8
default
  6
CONTINUOUS
 10
123.237593
 20
52.463295
 11
121.237593
 21
72.463299
 39
0
 62
0
  0
LINE
  8
default
  6
CONTINUOUS
 10
121.237593
 20
52.463295
 11
119.237593
 21
72.463299
 39
0
 62
0
  0
LINE
  8
default
  6
CONTINUOUS
 10
119.237593
 20
52.463295
 11
117.237593
 21
72.463299
 39
0
 62
0
  0
LINE
  8
default
  6
CONTINUOUS
 10
117.237593
 20
52.463295
 11
115.237593
 21
72.463299
 39
0
 62
0
  0
LINE
  8
default
  6
DOT
 10
91.237589
 20
66.463303
 11
103.237593
 21
66.463303
 39
0
 62
0
  0
LINE
  8
default
  6
DOT
 10
91.237589
 20
58.463295
 11
103.237593
 21
58.463295
 39
0
 62
0
  0
LINE
  8
default
  6
DOT
 10
103.237593
 20
66.463303
 11
103.237593
 21
65.463303
 39
0
 62
0
  0
LINE
  8
default
  6
DOT
 10
103.237593
 20
65.463303
 11
105.237593
 21
65.463303
 39
0
 62
0
  0
LINE
  8
default
  6
DOT
 10
103.237593
 20
58.463295
 11
103.237593
 21
59.463295
 39
0
 62
0
  0
LINE
  8
default
  6
DOT
 10
103.237593
 20
59.463295
 11
105.237593
 21
59.463295
 39
0
 62
0
  0
LINE
  8
default
  6
DOT
 10
110.237593
 20
70.463299
 11
127.237593
 21
70.463299
 39
0
 62
0
  0
LINE
  8
default
  6
DOT
 10
110.237593
 20
54.463295
 11
127.237593
 21
54.463295
 39
0
 62
0
  0
LINE
  8
default
  6
DOT
 10
110.237593
 20
54.463295
 11
105.237593
 21
59.463295
 39
0
 62
0
  0
LINE
  8
default
  6
DOT
 10
110.237593
 20
70.463299
 11
105.237593
 21
65.463303
 39
0
 62
0
  0
TEXT
  8
markup
  6
CONTINUOUS
 10
59.553133
 20
83.815049
 40
5.000000
 50
0.000000
 72
0
  7
Normal#0.500000#3.000000
  1
3/4" male NPT x 1/2" female (copper) fitting
 39
0
 62
0
  0
TEXT
  8
markup
  6
CONTINUOUS
 10
81.197243
 20
33.492492
 40
5.000000
 50
0.000000
 72
0
  7
Normal#0.500000#3.000000
  1
File off inner lip so that
 39
0
 62
0
  0
TEXT
  8
markup
  6
CONTINUOUS
 10
81.197243
 20
26.492492
 40
5.000000
 50
0.000000
 72
0
  7
Normal#0.500000#3.000000
  1
1/2" copper pipe will pass
 39
0
 62
0
  0
TEXT
  8
markup
  6
CONTINUOUS
 10
81.197243
 20
19.492492
 40
5.000000
 50
0.000000
 72
0
  7
Normal#0.500000#3.000000
  1
through the fitting
 39
0
 62
0
  0
LINE
  8
markup
  6
CONTINUOUS
 10
104.532976
 20
56.339880
 11
104.532976
 21
39.621834
 39
0
 62
0
  0
TEXT
  8
markup
  6
CONTINUOUS
 10
157.371132
 20
187.977449
 40
3.000000
 50
0.000000
 72
0
  7
Normal#0.300000#1.800000
  1
Interior of the fitting is
 39
0
 62
0
  0
TEXT
  8
markup
  6
CONTINUOUS
 10
157.371132
 20
183.777449
 40
3.000000
 50
0.000000
 72
0
  7
Normal#0.300000#1.800000
  1
ground into a cone shape
 39
0
 62
0
  0
TEXT
  8
markup
  6
CONTINUOUS
 10
157.371132
 20
179.577449
 40
3.000000
 50
0.000000
 72
0
  7
Normal#0.300000#1.800000
  1
(I used a small grinding
 39
0
 62
0
  0
TEXT
  8
markup
  6
CONTINUOUS
 10
157.371132
 20
175.377449
 40
3.000000
 50
0.000000
 72
0
  7
Normal#0.300000#1.800000
  1
stone in a drill to do this)
 39
0
 62
0
  0
LINE
  8
markup
  6
CONTINUOUS
 10
140.668053
 20
203.466290
 11
149.459806
 21
205.260526
 39
0
 62
0
  0
ENDSEC
  0
EOF
